.
 
Menu Site Christina Aguilerа
 
 
 
  • Написать Письмо
     
    Партнеры сайта

     

  •  

     

    Clocks3
     
    intro: repeat 4x

    e|--------------------------------------------------------------------------|
    B|--4-------4-------4----2-----2-----2----2-----2-----2----1-----1-----1----|
    G|----3--0----3--0----3----3-----3-----3----3-----3-----3----1-----1-----1--|
    D|---------------------------3-----3----------3-----3----------3-----3------|
    A|--------------------------------------------------------------------------|
    E|--------------------------------------------------------------------------|

    verse
    e|--------------------------------------------------------------------------|
    B|4-4-4-4-1-2-1---2-2-2-2---1-----4-4-4-1-2-1---2-2-2---1-------------------|
    G|--------------3---------3---3-1-------------3-------3---3-1---------------|
    D|------------------------------------------------------------3-1-----------|
    A|--------------------------------------------------------------------------|
    E|--------------------------------------------------------------------------|

    e|--------------------------------------------------------------------------|
    B|-4-4-1-2-1---2-2-2---1---------4-4-1-2-1---2-2-2---1----------------------|
    G|-----------3-------3---3-1---------------3-------3---3-1------------------|
    D|---------------------------3-1---------------------------3-1--------------|
    A|--------------------------------------------------------------------------|
    E|--------------------------------------------------------------------------|

    chorus: played 4x (you............... are)
    e|--------------------------------------------------------------------------|
    B|--4-------4-------4----2-----2-----2----2-----2-----2----1-----1-----1----|
    G|----3--0----3--0----3----3-----3-----3----3-----3-----3----1-----1-----1--|
    D|---------------------------3-----3----------3-----3----------3-----3------|
    A|--------------------------------------------------------------------------|
    E|--------------------------------------------------------------------------|

    repeat the verse 1x and the chorus 4x then add this: play 4x

    e|-4-3---4-3---4-3--4-3---4-3---4-3--4-3---4-3---4-3------------------------|
    B|-----4-----4----------2-----2----------1-----1----------------------------|
    G|--------------------------------------------------------------------------|
    D|--------------------------------------------------------------------------|
    A|--------------------------------------------------------------------------|
    E|--------------------------------------------------------------------------|

    (and nothing else compares)
    e|--------------------------------------------------------------------------|
    B|--------------------------------------------------------------------------|
    G|--------------------------------------------------------------------------|
    D|-3-do that 114 times (8th notes)------------------------------------------|
    A|--------------------------------------------------------------------------|
    E|--------------------------------------------------------------------------|

    play 2x
    e|--------------------------------------------------------------------------|
    B|--4-------4-------4----2-----2-----2----2-----2-----2----1-----1-----1----|
    G|----3--0----3--0----3----3-----3-----3----3-----3-----3----1-----1-----1--|
    D|---------------------------3-----3----------3-----3----------3-----3------|
    A|--------------------------------------------------------------------------|
    E|--------------------------------------------------------------------------|

    play 4x (you are)
    e|-4-3---4-3---4-3--4-3---4-3---4-3--4-3---4-3---4-3------------------------|
    B|-----4-----4----------2-----2----------1-----1----------------------------|
    G|--------------------------------------------------------------------------|
    D|--------------------------------------------------------------------------|
    A|--------------------------------------------------------------------------|
    E|--------------------------------------------------------------------------|

    play till fade (home, home where i wanted to go)
    e|-4-3---4-3---4-3--4-3---4-3---4-3--4-3---4-3---4-3------------------------|
    B|-----4-----4----------2-----2----------1-----1----------------------------|
    G|--------------------------------------------------------------------------|
    D|--------------------------------------------------------------------------|
    A|--------------------------------------------------------------------------|
    E|--------------------------------------------------------------------------|

    verse:

    the lights go out and i cant be saved
    tides that i tried to swim against
    have brought me down upon my knees
    oh i beg i beg and plead singing
    come on out with sings unsaid
    and shoot an apple off my head and a
    trouble that can be named
    a tigers waiting to be tames singing

    confusion that never stops
    the closing walls and ticking clocks
    gonna come back and take you hom
    i could not stop what you now know, singing
    come out upon my seas
    cursed missed opportunities
    am 1 part of the cure
    or i am i part of the disease, singing
       

      Biographies Christina Aguilera

      Time Line - 2003 Christina Aguilera
       
      Партнеры сайта

       


    Fan Site Christina Aguilera © 2007 - 2017