.
 
Menu Site Christina Aguilerа
 
 
 
  • Написать Письмо
     
    Партнеры сайта

     

  •  

     

    Clocks4
     
    Rest until the main phrase is played twice

    Riff A

    G----------------------------------------------
    D----------------------------------------------
    A---66666666-------------------------88888888--
    E---------------66666666---66666666------------

    (repeat 5x)

    Riff B

    G----------------------------------------------
    D----------------------------------------------
    A---66666666-------------------------11111111--
    E---------------66666666---66666666------------

    (repeat)

    when he switches to the higher pitch

    Riff C

    G---------------------------------------------------
    D-----------68888888---8-10-888-666--------66666666-
    A----666666--------------------------10-10----------
    E---------------------------------------------------

    (repeat)

    Riff A x 4
    Riff B x 4

    Riff C x 4

    Riff D

    G----------------------------------------------
    D----------------------------------------------
    A------------------------44444444--------------
    E-----22222222-22222222--------------44444444—

    (repeat 2)

    G-------------------------------------------------
    D-------------------------------------------------
    A----------------------99999999-99999999---6(hold)
    E--22222222-22222222------------------------------

    (rest for two measures)

    riff Cx7

    G----------------------------------------------
    D----------------------------------------------
    A---6-----8---6---8--6---8---------------------
    E------6--------6------6-----------------------
       

      Biographies Christina Aguilera

      Time Line - 2003 Christina Aguilera
       
      Партнеры сайта

       


    Fan Site Christina Aguilera © 2007 - 2017