.
 
Menu Site Christina Aguilerа
 
 
 
  • Написать Письмо
     
    Партнеры сайта

     

  •  

     

    Dont Panic4
     
    Hey people, enjoy this tab, I saw coldplay live at a gig a month or so ago,
    and I had to start tabbing there songs. Here’s the first. Enjoy this, coz
    there’s more to come!!!

    INTRO
    (play low E with thumb for F chord)
    v= downstroke
    ^=upstroke

    v v ^ v ^ v ^
    e--0--0-0--0---0--0-0---
    B--1--1-1--0p1-1--1-1---
    G--2--2-2--0p2-2--2-2---
    D--3--3-3--3------3-3---
    A--3--3-3--3------3-3---
    E--1--1-1--1------1-1---


    VERSE

    Am C F Am C F
    e--0--0--0----0--0--0----
    B--1--1--1----1--1--1----
    G--2--0--2----2--0--2----
    D--2--2--3----2--2--3----
    A--0--3--3----0--3--3----
    E--------1----------1----


    CHORUS
    Dm F C Dm F
    e--5--0--0----5--0----
    B--6--1--1----6--1----
    G--7--2--0----7--2----
    D--7--3--2----7--3----
    A--5--0--3----5--0----
    E--5----------5-------


    Am C F
    Oh, sinking like stones, all that we've fought for
    Am C F
    Oh, these places we've grown, all of us are done for
    Dm F
    And we live in a beautiful world
    C
    Yeah we do yeah we do
    Dm F
    We live in a beautiful world
    Am C F
    Oh, sinking like stones, all that we've fought for
    Am C F
    Oh, these places we've grown, all of us are done for
    Dm F
    And we live in a beautiful world
    C
    Yeah we do yeah we do
    Dm F
    We live in a beautiful world

    (w/phaser)
    Am C F
    Am C F

    Dm F
    And we live in a beautiful world
    C
    Yeah we do yeah we do
    Dm F
    We live in a beautiful world

    Am C F
    Am C F

    Am C F
    Oh, all that I know, there's nothing here to run from
    Am C F
    Cos yet, everybody here's got somebody to lean on...

       

      Biographies Christina Aguilera

      Time Line - 2003 Christina Aguilera
       
      Партнеры сайта

       


    Fan Site Christina Aguilera © 2007 - 2017