.
 
Menu Site Christina Aguilerа
 
 

  • Партнеры сайта

     

  •  

     

    Everything Is Not Lost1
     
    VERSE 1


    When I counted....demons

    e|--0------------------------------------------------
    B|--0-----------0-----------3------------------------
    G|--1-----------1-----------3------------------------
    D|--2-----------3-----------2------------(Repeat 3x)-
    A|---------------------------------------------------
    E|--0-----------1-----------2------------------------



    Drove the other ones away

    e|--0-----------------------0------------------------
    B|--2-----------------------0---------------------0--
    G|--2-----------------------1-------------------1----
    D|--------------------------2-----------------2------
    A|--2-----------------------2------------------------
    E|---------------------------------------------------



    So if you ever.....neglected

    e|--0-----------0-----------0-----------------0------
    B|--0-----------0-----------0-----------3-------3----
    G|--1-----------1-----------1-----------3---------3-0
    D|--2-----------1-----------0-----------2------------
    A|--2------------------------------------------------
    E|--------------------------------------2------------ Rhythm and lead
    played together
    (e|--------------------------------------------------)
    (B|-5------------------------------------------------)
    (G|--------------------------------------------------) /
    (D|--------------------------------------------------) /
    (A|--------------------------------------------------) /
    (E|--------------------------------------------------)/



    If you think all...lost

    e|--0-----------0-----------0-----------0---------0--
    B|--0-----------0-----------0-----------0------2--0--
    G|--1-----------1-----------1-----------2------2--4--
    D|----2---------1-----------0----------------2-------
    A|--------------------------------------4--4---------
    E|---------------------------------------------------

    (e|--------------------------------------------------)
    (B|-5------------------------7////8-----5------------)
    (G|--------------------------------------------------)
    (D|--------------------------(slow slide/bend)-------)
    (A|--------------------------------------------------)
    (E|--------------------------------------------------)



    I'll be counting..

    e|--0-----------0-----------0-----------0------------
    B|--0-----------0-----------0-----------0------------
    G|--1-----------1-----------1-----------2------------
    D|--2-----------1-----------0------------------------
    A|--------------------------------------4------------
    E|---------------------------------------------------

    (e|--------------------------------------------------)
    (B|-------9-----------9-----------12----14-----------)
    (G|-9--9-----9--11-11----11-13-13----13-14-----------)
    (D|--------------------------------------------------)
    (A|--------------------------------------------------)
    (E|--------------------------------------------------)



    hoping everything..

    e|--------------------0-----0-------------------------
    B|--------------------2-----0-------------------------
    G|--2-----------------2-----1-------------------------
    D|--2-----------------------2-------------------------
    A|--4-----------------2-------------------------------
    E|--------------------------0-------------------------

    (e|-------------------------12-12-12-12-12-12--------)
    (B|-------------------------------------------9-11---)
    (G|-6------------------------------------------------)
    (D|--------------------------------------------------)
    (A|--------------------------------------------------)
    (E|--------------------------------------------------)



    INSTRUMENTAL VERSE (Repeat 4x)

    e|--0-----0-----0-----------0-----0-----0-------------
    B|--0-----0-----0-----------3-----3-----2-------------
    G|--1-----1-----1-----------4-----4-----2-------------
    D|--2-----2-----0-----------0-----0-----0-------------
    A|--2-----------2-------------------------------------
    E|--0-----------0-----------3-----------2-------------

    (e|-12-12-12-12-12-12-------12-12-12-12-12-12-[16,17]) [2nd time around]
    (B|-------------------9-11--------------------9-11---)
    (G|--------------------------------------------------)
    (D|--------------------------------------------------)
    (A|--------------------------------------------------)
    (E|--------------------------------------------------)



    VERSE 2

    When you thought

    e|-------------------------------------------0-------
    B|--0-----------0-----------3------------------3-----
    G|--1-----------1-----------3--------------------3---
    D|--2-----------3-----------2----------------------0-
    A|--2------------------------------------------------
    E|--0-----------1-----------2------------------------



    e|--0----------------------------------------0-------
    B|--0-----------0-----------3------------------3-----
    G|--1-----------1-----------3--------------------3---
    D|----2---------3-----------2----------------------0-
    A|---------------------------------------------------
    E|--0-----------1-----------2------------------------
    Play 2x
    (e|-------------11----------12-----------------------) omit 0-3-3-3
    (B|-9------------------------------------------------) riff 2nd time
    (G|--------------------------------------------------)
    (D|--------------------------------------------------) /
    (A|--------------------------------------------------) /
    (E|--------------------------------------------------) /



    don't you let it drag you down

    e|--0-----------------------0------------------------
    B|--2-----------------------0---------------------0--
    G|--2-----------------------1-------------------1----
    D|--------------------------2-----------------2------
    A|--2------------------------------------------------
    E|--------------------------0------------------------



    if you ever feel..

    e|--0-----------0-----------0-----------------0------
    B|--0-----------0-----------0-----------3-------3----
    G|--1-----------1-----------1-----------3---------3-0
    D|--2-----------1-----------0-----------2------------
    A|--2------------------------------------------------
    E|--------------------------------------2------------

    (e|--------------------------------------------------)
    (B|-5------------------------------------------------)
    (G|--------------------------------------------------)
    (D|--------------------------------------------------)
    (A|--------------------------------------------------)
    (E|--------------------------------------------------)



    if you think

    e|--0-----------0-----------0-----------0---------0--
    B|--0-----------0-----------0-----------0------2--0--
    G|--1-----------1-----------1-----------2------2--4--
    D|----2---------1-----------0----------------2-------
    A|--------------------------------------4--4---------
    E|---------------------------------------------------

    (e|--------------------------------------------------)
    (B|-5-----------------------7////8------5------------)
    (G|--------------------------------------------------)
    (D|--------------------------------------------------)
    (A|--------------------------------------------------)
    (E|--------------------------------------------------)



    i'll be counting up...

    e|--0-----------0-----------0-----------0------------
    B|--0-----------0-----------0-----------0------------
    G|--1-----------1-----------1-----------2------------
    D|--2-----------1-----------0------------------------
    A|--------------------------------------4------------
    E|---------------------------------------------------

    (e|--------------------------------------------------)
    (B|-------9-----------9-----------12----14-----------)
    (G|-9--9-----9--11-11----11-13-13----13-14-----------)
    (D|--------------------------------------------------)
    (A|--------------------------------------------------)
    (E|--------------------------------------------------)



    hoping everthing's not lost

    e|--------------------0-----0-------------------------
    B|--------------------2-----0-------------------------
    G|--2-----------------2-----1-------------------------
    D|--2-----------------------2-------------------------
    A|--4-----------------2-------------------------------
    E|--------------------------0-------------------------

    (e|-------------------------12-12-12-12-12-12--------)
    (B|-------------------------------------------9-11---)
    (G|-6------------------------------------------------)
    (D|--------------------------------------------------)
    (A|--------------------------------------------------)
    (E|--------------------------------------------------)



    INSTRUMENTAL VERSE (Repeat 4x)

    e|--0-----0-----0-----------0-----0-----0-------------
    B|--0-----0-----0-----------3-----3-----2-------------
    G|--1-----1-----1-----------4-----4-----2-------------
    D|--2-----2-----0-----------0-----0-----0-------------
    A|--2-----------2-------------------------------------
    E|--0-----------0-----------3-----------2-------------

    (e|-12-12-12-12-12-12-------12-12-12-12-12-12-[16,17]) [2nd time around]
    (B|-------------------9-11--------------------9-11---)
    (G|--------------------------------------------------)
    (D|--------------------------------------------------)
    (A|--------------------------------------------------)
    (E|--------------------------------------------------)



    BRIDGE

    If you ever feel..
    if you think that..

    e|--0-------------------------------------------------
    B|--0-------------------------------------------------
    G|--1-------------------------------------------------
    D|--2-----------1-----------0-----------(Repeat 2x)---
    A|----------------------------------------------------
    E|--0-----------0-----------0-------------------------



    i'll be counting up...

    e|--0-----------------------------------0-------------
    B|--0-----------------------------------0-------------
    G|--1-----------------------------------2-------------
    D|--2-----------1-----------0-------------------------
    A|--------------------------------------4-------------
    E|--0-----------0-----------0-------------------------

    (e|--------------------------------------------------)
    (B|-------9-----------9-----------12----14-----------)
    (G|-9--9-----9--11-11----11-13-13----13-14-----------)
    (D|--------------------------------------------------)
    (A|--------------------------------------------------)
    (E|--------------------------------------------------)



    hopin everything's not lost

    e|--------------------0-----0-------------------------
    B|--------------------2-----0-------------------------
    G|--2-----------------2-----1-------------------------
    D|--2-----------------------2-------------------------
    A|--4-----------------2-------------------------------
    E|--------------------------0-------------------------

    (e|--------------------------------------------------)
    (B|--------------------------------------------------)
    (G|-6------------------------------------------------)
    (D|--------------------------------------------------)
    (A|--------------------------------------------------)
    (E|--------------------------------------------------)



    OUTRO

    Singin'out oh yea.....

    e|--4-----4-----4-----4-----4-----4-----5-----5-------
    B|--0-----0-----0-----0-----0-----0-----0-----0-------
    G|--1-----1-----1-----1-----1-----1-----2-----2-------
    D|--2-----2-----2-----2-----0-----0-------------------
    A|--------------------------------------4-----4-------
    E|----------------------------------------------------

    Repeat 4 times



    e|--0-----0-----0-----------0-----0-----0-------------
    B|--0-----0-----0-----------3-----3-----2-------------
    G|--1-----1-----1-----------4-----4-----2-------------
    D|--2-----2-----0-----------0-----0-----0-------------
    A|--2-----------2-------------------------------------
    E|--0-----------0-----------3-----------2-------------

    (e|-12-12-12-12-12-12-------12-12-12-12-12-12-[16,17]) [2nd time around]
    (B|-------------------9-11--------------------9-11---)
    (G|--------------------------------------------------)
    (D|--------------------------------------------------)
    (A|--------------------------------------------------)
    (E|--------------------------------------------------)

    Repeat 4 times



    e|--0-----0-----0-----0-----2-----2-----2-----2-------
    B|--0-----0-----0-----0-----3-----3-----3-----3-------
    G|--1-----1-----1-----1-----2-----2-----2-----2-------
    D|--2-----2-----2-----2-----4-----4-----4-----4-------
    A|--2-----2-----2-----2-----2-----2-----2-----2-------
    E|--0-----0-----0-----0-------------------------------

    (e|--------------------------------------------------)
    (B|-0--0--0--0--0--0--0--0--2--2--2--2--2--2--2------)
    (G|--------------------------------------------------)
    (D|--------------------------------------------------)
    (A|--------------------------------------------------)
    (E|--------------------------------------------------)



    e|--4-----4-----4-----4-----4-----4-----4-----4-------
    B|--2-----2-----2-----2-----2-----2-----2-----2-------
    G|--2-----2-----2-----2-----2-----2-----2-----2-------
    D|----------------------------------------------------
    A|----------------------------------------------------
    E|--2-----2-----2-----2-----2-----2-----2-----2-------

    (e|--------------------------------------------------)
    (B|-5--5--5--5--5--5--5--5--5--5--5--5--5--7--7--7---)
    (G|--------------------------------------------------)
    (D|--------------------------------------------------)
    (A|--------------------------------------------------)
    (E|--------------------------------------------------)



    e|--0-----0-----0-----0-----2-----2-----2-----2-------
    B|--0-----0-----0-----0-----3-----3-----3-----3-------
    G|--1-----1-----1-----1-----2-----2-----2-----2-------
    D|--2-----2-----2-----2-----4-----4-----4-----4-------
    A|--2-----2-----2-----2-----2-----2-----2-----2-------
    E|--0-----0-----0-----0-------------------------------

    (e|--------------------------------------------------)
    (B|-5--5--5--5--5--5--5--5--7--7--7--7--7--7--7------)
    (G|--------------------------------------------------)
    (D|--------------------------------------------------)
    (A|--------------------------------------------------)
    (E|--------------------------------------------------)



    e|--4-----4-----4-----4-----4-----4-----4-----4-------
    B|--2-----2-----2-----2-----2-----2-----2-----2-------
    G|--2-----2-----2-----2-----2-----2-----2-----2-------
    D|----------------------------------------------------
    A|----------------------------------------------------
    E|--2-----2-----2-----2-----2-----2-----2-----2-------

    (e|--------------------------------------------------)
    (B|-9--9--9--9--9--9--9--9--9--9--9--9--9--10-10-10--)
    (G|--------------------------------------------------)
    (D|--------------------------------------------------)
    (A|--------------------------------------------------)
    (E|--------------------------------------------------)



    e|--0-----------------------2-------------------------
    B|--0-----------------------3-------------------------
    G|--1-----------------------2-------------------------
    D|--2-----------------------4-------------------------
    A|--------------------------2-------------------------
    E|--0-------------------------------------------------



    e|---4------------------------------------------------
    B|---2------------------------------------------------
    G|---2------------------------------------------------
    D|----------------------------------------------------
    A|----------------------------------------------------
    E|---2------------------------------------------------



    e|---0------------------------------------------------
    B|---0------------------------------------------------
    G|---1------------------------------------------------
    D|---2------------------------------------------------
    A|----------------------------------------------------
    E|---0------------------------------------------------

    EVERYTHING's NOT LOST
    a song by Coldplay
       

      Biographies Christina Aguilera

      Time Line - 2003 Christina Aguilera
       
      Партнеры сайта

       


    Fan Site Christina Aguilera © 2007 - 2018