.
 
Menu Site Christina Aguilerа
 
 
 
  • Написать Письмо
     
    Партнеры сайта

     

  •  

     

    God Put A Smile Upon Your Face
     
    Artist: Coldplay
    Title: God put a smile upon your face
    Album: A Rush of Blood to the Head

    STANDARD TUNING

    Other tabs I?ve seen are tuned to dflat but if your like me and don?t fancy tuning down
    this tab is fine.

    e ----------------------------------------------------------------------------------------------------|
    B -14--12------12----12-------------------------------------------------------------------------------|
    G ---------13------------13------12--------------11---------------------------------------------------|
    D ---------------------------14-----------------------------------------------------------------------|
    A ----------------------------------------------------------------------------------------------------|
    E ----------------------------------------------------------------------------------------------------|

    e ----------------------------------------------------------------------------------------------------|
    B ----------------------------------------------------------------------------------------------------|
    G ----------------------------------------------------------------------------------------------------|
    D -11-11-11-11-11-11-11-11-11-11-11-11-11-11-11-11-11-11-11-11-11-11-11-11-11-11-11-11-13-14-13-11----|
    A ----------------------------------------------------------------------------------------------------|
    E ----------------------------------------------------------------------------------------------------|

    That was the two lead guitar parts. This is now my interpritation of the chords for the intro/verse:

    e ----------------------------------------------------------------------------------------------------|
    B ----------------------------------------------------------------------------------------------------|
    G -6--6-6-6-6--6-6--6-6-6-6--6--6--6-6-6-6--6-6--6-6--6-6-6-6-----------------------------------------|
    D -6--6-6-6-6--6-6--6-6-6-6--6--5--5-5-5-5--5-5--5-5--6-6-6-6-----------------------------------------|
    A -4--4-4-4-4--4-7--7-7-7-7--7--6--6-6-6-6--6-6--6-6--5-5-5-5-----------------------------------------|
    E ----------------------------------------------------------------------------------------------------|

    The chorus chords I can?t quite put chords too. It?s something like this:

    e ----------------------------------------------------------------------------------------------------|
    B ----------------------------------------------------------------------------------------------------|
    G -6--6-6--6-6--6--6-6--6-6-/-9--9-9--9-9-------------------------------------------------------------|
    D -6--6-6--6-6--6--6-6--6-6-/-9--9-9--9-9--9--9-9--9-9------------------------------------------------|
    A -4--4-4--4-4--4--4-4--4-4-/-7--7-7--7-7--9--9-9--9-9------------------------------------------------|
    E -----------------------------------------7--7-7--7-7------------------------------------------------|

    The lead guitar plays this at the chorus

    e ----------------------------------------------------------------------------------------------------|
    B -14-14-14-14-14-14-14-14-14-14-14-14-14-14-14-14-14-14-14-14-14-14-14-14-14-12-12-12-12-12-12-12-14-|
    G ----------------------------------------------------------------------------------------------------|
    D ----------------------------------------------------------------------------------------------------|
    A ----------------------------------------------------------------------------------------------------|
    E ----------------------------------------------------------------------------------------------------|
       

      Biographies Christina Aguilera

      Time Line - 2003 Christina Aguilera
       
      Партнеры сайта

       


    Fan Site Christina Aguilera © 2007 - 2017