.
 
Menu Site Christina Aguilerа
 
 
 
  • Написать Письмо
     
    Партнеры сайта

     

  •  

     

    God Put A Smile Upon Your Face4
     
    Coldplay - God Put A Smile Upon Your Face

    Tune guitar to D-flat ( Db Ab Db F Ab Db )

    Intro:
    --------------------------------------------------
    --------------------------------------------------
    ---1-1-1----4-4-4----3-3-3-3-3----2---------------
    ---2-2-2----5-5-5----4-4-4-4-4----3---------------
    ---2-2-2----5-5-5----4-4-4-4-4----3---------------
    -0--------0--------0------------0-----------------

    ------------------------------------------------
    ------------------------------------------------
    ---1-1-1----4-4-4----3-3-3------2-2-2-----------
    ---2-2-2----5-5-5----4-4-4------3-3-3-----------
    ---2-2-2----5-5-5----4-4-4------3-3-3-----------
    -0--------0--------0----------0-----------------

    Vers: (same chords as intro)

    Where do we go? Nobody knows.
    I've got to say I'm on my way down.
    God, give me style and give me grace.
    God put a smile upon my face.

    Interlude:

    --------------------------------------------------
    --------------------------------------------------
    ---1-1-1----4-4-4----3-3-3-3-3----2---------------
    ---2-2-2----5-5-5----4-4-4-4-4----3---------------
    ---2-2-2----5-5-5----4-4-4-4-4----3---------------
    -0--------0--------0------------0-----------------

    ------------------------------------------------
    ------------------------------------------------
    ---1-1-1----4-4-4----3-3-3------2-2-2-----------
    ---2-2-2----5-5-5----4-4-4------3-3-3-----------
    ---2-2-2----5-5-5----4-4-4------3-3-3-----------
    -0--------0--------0----------0-----------------

    Vers:

    Where do we go to draw the line?
    I've got to say I wasted all your time, but honey, honey.
    Where do I go to fall from grace?
    God put a smile upon your face, yeah.

    Chorus:

    Now...........................When you work it out, I'm worse than you.
    ---------------------------------------------
    ---------------------------------------------
    ---9--9--9--9--9--9--9--9---4-4-4-4--6-6-6-6-
    ---10-10-10-10-10-10-10-10--5-5-5-5--7-7-7-7-
    ---10-10-10-10-10-10-10-10--5-5-5-5--7-7-7-7-
    ---0--0--0--0--0--0--0--0---0-0-0-0--0-0-0-0- 4X


    Now when you work it out, I'm worse than you.
    Yeah, when you work it out, I wanted to.
    Now when we work out where to draw the line
    Your guess is as good as mine.

    Interlude:

    --------------------------------------------------
    --------------------------------------------------
    ---1-1-1----4-4-4----3-3-3-3-3----2---------------
    ---2-2-2----5-5-5----4-4-4-4-4----3---------------
    ---2-2-2----5-5-5----4-4-4-4-4----3---------------
    -0--------0--------0------------0-----------------

    ------------------------------------------------
    ------------------------------------------------
    ---1-1-1----4-4-4----3-3-3------2-2-2-----------
    ---2-2-2----5-5-5----4-4-4------3-3-3-----------
    ---2-2-2----5-5-5----4-4-4------3-3-3-----------
    -0--------0--------0----------0-----------------

    Vers:

    Where do we go? Nobody knows
    Don't ever say you're on your way down, well.
    God gave you style and gave you grace
    And put a smile upon your face, oh, yeah.

    Chorus:

    Now when you work it out, I'm worse than you.
    Yeah, when you work it out, I wanted to.
    Now when we work out where to draw the line
    Your guess is as good as mine.

    Interlude: ( while playing Interlude sing the lyrics and play
    The solo)

    It's as good as mine.
    It's as good as mine. Solo:
    It's as good as mine, no, no, no, no... e:0000000000002320----------------
    It's as good as ... B:--------------------------------

    (start playing the chorus chords when you start on miiiine)

    Miiiine...
    It's as good as mine.
    It's as good as mine.
    It's as good as mine.
    It's as good as mine.

    Vers:

    Where do we go? Nobody knows.
    Don't ever say you're on your way down when
    God gave you style and gave you grace
    And put a smile upon your face.
       

      Biographies Christina Aguilera

      Time Line - 2003 Christina Aguilera
       
      Партнеры сайта

       


    Fan Site Christina Aguilera © 2007 - 2017