.
 
Menu Site Christina Aguilerа
 
 
 
  • Написать Письмо
     
    Партнеры сайта

     

  •  

     

    God Put A Smile Upon Your Face5
     
    Tuning: Standard

    Don't play during the Intro or the verse, when it gets to the Guitar riff, here's what
    play:

    Guitar Riff:
    G|-------------------||
    D|-11-------9-11--9-.||
    A|------------------.||
    E|-----9-9-----------||

    Verse:
    G|-------------------||
    D|-11---------11----.||
    A|----------9-----9-.||
    E|-----9-9-----------||

    Chorus:
    Amaj7 E6 F#add9
    G|---------------|-----------------|-----------------|-----------------|
    D|---------------|-----------------|-----------------|-----------------|
    A|---------------|-----------------|---7-7-7-7-7-7-7-|---9-9-9-9-9-9-9-|
    E|-5--5--5-5-5-5-|---5-5-5-5-5-5-5-|-----------------|-----------------|
    __________________
    Amaj7 E6 | (1st Time)
    G|---------------|-----------------|-----------------||-----------------|
    D|-7--7--7-7-7-7-|---7-7-7-7-7-7-7-|-----------------||-----------------|
    A|---------------|-----------------|---7-7-7-7-7-7-7-||---9-9-9-9-9-9-9-|
    E|---------------|-----------------|-----------------||-----------------|
    _____________
    | (2 time)
    G||-11--9------|
    D||-------11-9-|
    A||------------|
    E||------------|

    Then Guitar Riff again , Verse, Chrous blah blah blah. Bassists don't need to know song
    we figure it out as we go! wOOt.
       

      Biographies Christina Aguilera

      Time Line - 2003 Christina Aguilera
       
      Партнеры сайта

       


    Fan Site Christina Aguilera © 2007 - 2017