.
 
Menu Site Christina Aguilerа
 
 
 
  • Написать Письмо
     
    Партнеры сайта

     

  •  

     

    Parachutes1
     
    #----------------------------------PLEASE NOTE--------------------------------#
    #This file is the author's own work and represents their interpretation of the#
    #song. You may only use this file for private study, scholarship, or research.#
    #-----------------------------------------------------------------------------#
    #-- File created with Instab - http://www.pconline.com/~smcarey/instab.html --#
    #-----------------------------------------------------------------------------#

    Author/Artist: Coldplay


    Sorry if this is'nt exactly right but you'll be able to perfect it anyway. Don't bother writing to me this is my first tab.

    ------------------------------------------------------------------------------
    ------------------------------------------------------------------------------
    ----8-----8---------------------------------8-----8---------------------------
    ------9---------------6-----------------------9-------------6-------------4---
    --------9---------------6---6-------------------9-------------6---6---------4-
    -7------------------4-----4---------------7---------------4-----4-------2-----


    ------------------------------------------------------------------------------
    ------------------------------------------------------------------------------
    ------------------------------------------------------------------------------
    ---4--------4-----4------------2-----2--------2-----0-------------------------
    --------------4------------------2--------------2-----------------------------
    -2------2-2-----2----------2-0-----0--------0-----0---------------------------
    Carry this on 3 times and slot the words in. You'll find it's easy.

       

      Biographies Christina Aguilera

      Time Line - 2003 Christina Aguilera
       
      Партнеры сайта

       


    Fan Site Christina Aguilera © 2007 - 2017