.
 
Menu Site Christina Aguilerа
 
 
 
  • Написать Письмо
     
    Партнеры сайта

     

  •  

     

    Parachutes5
     
    =-=-=-=-=-=-=-
    Intro & Verse: B Abm B Abm F#m E
    =-=-=-=-=-=-=-

    B Abm B Abm F#m
    E|-|-------------------|-------------------|------------------|-|
    B|-|-------------------|-------------------|------------------|-|
    G|-|----8--8----4--4---|----8--8----4--4---|---2---2---2---2--|-|
    D|-|-----9--9----6--6--|-----9--9----6--6--|----4-------4-----|-|
    A|-|------9-------6----|------9-------6----|-----4-------4----|-|
    e|-|--7-------4--------|--7-------4--------|--2-------2-------|-|

    E
    E|-|------------------|-|
    B|-|------------------|-|
    G|-|---1--1----1---1--|-|
    D|-|----2--2----2-----|-|
    A|-|-----2-------2----|-|
    e|-|--0-------0-------|-|

    =-=-=-
    Verse:
    =-=-=-

    B Abm
    Yeah my head is a stormy haze
    B Abm F#m E
    I'll be round; I'll be loving you always, always
    B Abm
    Here I am and I take my time
    B Abm F#m E
    Here I am and I'll wait in line always, always

    Chords:

    B Abm F#m E
    E|-|--7--|--4--|--2--|--0--|-|
    B|-|--7--|--4--|--2--|--0--|-|
    G|-|--8--|--4--|--2--|--1--|-|
    D|-|--9--|--6--|--4--|--2--|-|
    A|-|--9--|--6--|--4--|--2--|-|
    e|-|--7--|--4--|--2--|--0--|-|
       

      Biographies Christina Aguilera

      Time Line - 2003 Christina Aguilera
       
      Партнеры сайта

       


    Fan Site Christina Aguilera © 2007 - 2017