.
 
Menu Site Christina Aguilerа
 
 
 
  • Написать Письмо
     
    Партнеры сайта

     

  •  

     

    Politik1
     
    #----------------------------------PLEASE NOTE--------------------------------#
    #This file is the author's own work and represents their interpretation of the#
    #song. You may only use this file for private study, scholarship, or research.#
    #-----------------------------------------------------------------------------#
    #-- File created with Instab - http://www.pconline.com/~smcarey/instab.html --#
    #-----------------------------------------------------------------------------#
    Verse/Chorus?

    C F
    --8----8-----|----------------------------------------------------------------|
    --8----10----|----------------------------------------------------------------|
    --9----10----|----------------------------------------------------------------|
    --10---10----|----------------------------------------------------------------|
    --10---8-----|----------------------------------------------------------------|
    --8----8-----|----------------------------------------------------------------|


    ~ 2:55
    Cmin D# G
    ------------------------------------------------------------------------------|
    --9----11---13----------------------------------------------------------------|
    --10---12---13----------------------------------------------------------------|
    --10---13---13----------------------------------------------------------------|
    --8----13---11----------------------------------------------------------------|
    ------------------------------------------------------------------------------|

    Guitar 2

    ------------------------------------------------------------------------------|
    --9-9-9-9-----11-11-11-11------13-13-13-13-----11-11-11-11----9-9-9-9---------|
    ------------------------------------------------------------------------------|
    ------------------------------------------------------------------------------|
    ------------------------------------------------------------------------------|
    ------------------------------------------------------------------------------|
       

      Biographies Christina Aguilera

      Time Line - 2003 Christina Aguilera
       
      Партнеры сайта

       


    Fan Site Christina Aguilera © 2007 - 2017