.
 
Menu Site Christina Aguilerа
 
 
 
  • Написать Письмо
     
    Партнеры сайта

     

  •  

     

    See You Soon
     
    Jimmy Page Tuning: DADGbd

    Capo: 2nd Fret

    Chords Used:

    C#min Eb-9min Eno5 F#min7 Bsus4no5 Bsus4 Esus4 Esus4no5
    e| 0 0 0 0 0 2 7 0
    c#| 3 5 7 8 2 3 8 8
    A| 4 6 7 9 2 2 7 7
    E| X X X X X X X X
    B| 2 4 5 7 2 X X 5
    E| X X X X X X X X

    Note: For tuning just tune to Jimmy Page tuning, but for the 2nd string
    tune it to b instead of a. Then capo at the 2nd fret. You don't
    really have to see the chart all the time, just know when to
    change your chord & strum it by hearing. It's not really
    strumming nor is it plucing. What is it? Just do it by hearing.

    Intro:

    e|---0-----0-----0-----0-------0-------0-----0-----0---0-------0-----
    c#|-3-3-----5-----7---2---2-0h2---2---3-3-----5-----7-2---2-0h2---2---
    A|-4-------6-----7---2------2------2-4-------6-----7-2------2------2-
    E|-------------------------------------------------------------------
    B|-2-------4-----5---0------0--------2-------4-----5-0------0--------
    E|-------------------------------------------------------------------
    C#min Eb-9min Eno5 Bsus4no5 C#min Eb-9min Eno5 Bsus4no5

    e|----------0-----0-------0-----|
    c#|--8-----7---7-2---2-0h2---2---|
    A|--9-----7-----2------2------2-|
    E|------------------------------|
    B|--7-----5-----0------0--------|
    E|------------------------------|
    F#min7 Eno5 Bsus4no5

    Verse 1:

    e|----0-----0---------0------0-------0---------0-------
    c#|-3--3--3--5---------7----2---2-----2---2-0h2---2-----
    A|-4--------6---------7----2---------2------2------2---
    E|-----------------------------------------------------
    B|-2--------4---------5-----------0--0------0----------
    E|-----------------------------------------------------
    C#min Eb-9min Eno5 Bsus4no5
    So you lost your trust, And you never should have,

    e|-0----0--0---------0-------0-----|
    c#|-8-8--7-----7------2-2-0h2---2---|
    A|-9-9--7------------2----2------2-|
    E|---------------------------------|
    B|-7-7--5------------0----0--------|
    E|---------------------------------|
    F#min7 Eno5 Bsus4no5
    You never should have,

    e|-----0------0----------0------0-----0---------0-----
    c#|-3---3---3--5----------7---2-----2--2---2-0h2---2---
    A|-4----------6----------7---2--------2------2------2-
    E|----------------------------------------------------
    B|-2----------4----------5------------0------0--------
    E|----------------------------------------------------
    C#min Eb-9min Eno5 Bsus4no5
    But don't break your back, If you ever see this,

    e|-0------0---0-----0-------0-----|
    c#|-8-8----7------7--2-2-0h2---2---|
    A|-9-9----7---------2----2------2-|
    E|--------------------------------|
    B|-7-7----5---------0----0--------|
    E|--------------------------------|
    F#min7 Eno5 Bsus4no5
    Don't answer that,

    Chorus:

    e|-2/7---------0----------
    c#|-3/8--7------7-7------7-
    A|-2/7--7---------------7-
    E|------------------------
    B|------5-----------5-5---
    E|------------------------
    Bsus4/Esus4 Eno5
    In a bullet proof vest,

    e|----------------0-------0----
    c#|--------2-2-0h2---2---3-3----
    A|--------2----2------2-4------
    E|-----------------------------
    B|--------0----0--------2------
    E|-----------------------------
    Bsus4no5 C#min
    With the windows all closed,

    e|-7-7-----------0---------
    c#|-8-8--------7-----7--2-2-
    A|-7-7--------7--------2---
    E|-------------------------
    B|------------5--------0---
    E|-------------------------
    Esus4 Eno5 Bsus4no5
    I'll be doing my best,

    e|-----0----------0-+
    c#|-0h2---2------3-3-+
    A|--2------2----4---+
    E|------------------+
    B|--0-----------2---+
    E|------------------+
    C#min
    I'll see you soon,

    e|-2/7-------0---------
    c#|-3/8--7----7-7-----7-
    A|-2/7--7------------7-
    E|---------------------
    B|------5--------5-5---
    E|---------------------
    Bsus4/Esus4 Eno5
    In a telescope lens,

    e|-------------0--------------0----------------
    c#|-----2-2-0h2---2----------3-3--------8-----8-
    A|-----2----2------2--------4----------7-----7-
    E|---------------------------------------------
    B|-----0----0---------------2------5-5---5-5---
    E|---------------------------------------------
    Bsus4no5 C#min Esus4no5
    And when all you want is friends,

    e|-----0----------0---0-------0------0-------0-----
    c#|-0h2---2------3-3---5-------7----2---2-0h2---2---
    A|--2------2----4-----6-------7----2------2------2-
    E|-------------------------------------------------
    B|--0-----------2-----4-------5----0------0--------
    E|-------------------------------------------------
    Bsus4no5 C#min Eb-9min Eno5 Bsus4no5
    I'll see you soon,

    e|---0--------------------0-------0-----
    c#|-3-3---5-------7----2-2---2-0h2---2---
    A|-4-----6-------7----2-2------2------2-
    E|--------------------------------------
    B|-2-----4-------5----0-0------0--------
    E|--------------------------------------
    C#min Eb-9min Eno5 Bsus4no5

    Verse 2:
    e|----0------0--------0----0---------0-----------0-------0---
    c#|-3--3--3---5--------7--2---2-------2---2--0h2----2---2---2-
    A|-4---------6--------7--2-----------2-------2-------2-2-----
    E|-----------------------------------------------------------
    B|-2---------4--------5----------0---0-------0---------------
    E|-----------------------------------------------------------
    C#min Eb-9min Eno5 Bsus4no5
    So they came for you, They came snapping at your heels,

    e|-0-------0--0----------------0-------0-----|
    c#|-8-8-----7-----7-------------2-2-0h2---2---|
    A|-9-9-----7-------------------2----2------2-|
    E|-------------------------------------------|
    B|-7-7-----5-------------------0----0--------|
    E|-------------------------------------------|
    F#min7 Eno5 Bsus4no5
    They come snapping at your heels,

    e|-----0------0----------0------0-----0---------0-----
    c#|-3---3---3--5----------7---2-----2--2---2-0h2---2---
    A|-4----------6----------7---2--------2------2------2-
    E|----------------------------------------------------
    B|-2----------4----------5------------0------0--------
    E|----------------------------------------------------
    C#min Eb-9min Eno5 Bsus4no5
    But don't break your back, If you ever see this,

    e|-0------0---0-----0-------0-----|
    c#|-8-8----7------7--2-2-0h2---2---|
    A|-9-9----7---------2----2------2-|
    E|--------------------------------|
    B|-7-7----5---------0----0--------|
    E|--------------------------------|
    F#min7 Eno5 Bsus4no5
    Don't answer that,

    Chorus:

    e|-2/7---------0----------
    c#|-3/8--7------7-7------7-
    A|-2/7--7---------------7-
    E|------------------------
    B|------5-----------5-5---
    E|------------------------
    Bsus4/Esus4 Eno5
    In a bullet proof vest,

    e|----------------0-------0----
    c#|--------2-2-0h2---2---3-3----
    A|--------2----2------2-4------
    E|-----------------------------
    B|--------0----0--------2------
    E|-----------------------------
    Bsus4no5 C#min
    With the windows all closed,

    e|-7-7-----------0---------
    c#|-8-8--------7-----7--2-2-
    A|-7-7--------7--------2---
    E|-------------------------
    B|------------5--------0---
    E|-------------------------
    Esus4 Eno5 Bsus4no5
    I'll be doing my best,

    e|-----0----------0-+
    c#|-0h2---2------3-3-+
    A|--2------2----4---+
    E|------------------+
    B|--0-----------2---+
    E|------------------+
    C#min
    I'll see you soon,

    e|-2/7-------0---------
    c#|-3/8--7----7-7-----7-
    A|-2/7--7------------7-
    E|---------------------
    B|------5--------5-5---
    E|---------------------
    Bsus4/Esus4 Eno5
    In a telescope lens,

    e|-------------0---------------0----------------
    c#|-----2-2-0h2---2-----------3-3--------8-----8-
    A|-----2----2------2---------4----------7-----7-
    E|---------------------------------------------
    B|-----0----0----------------2------5-5---5-5---
    E|---------------------------------------------
    Bsus4no5 C#min Esus4no5
    And when all you want is friends,

    e|-----0-----------0-----0-----0------0---
    c#|-0h2---2-------3-3-----5-----7----2---2-
    A|--2------2-----4-------6-----7----2-----
    E|----------------------------------------
    B|--0------------2-------4-----5----0-----
    E|----------------------------------------
    Bsus4no5 C#min Eb-9min Eno5 Bsus4no5
    I'll see you soon,

    e|-----0------------0-----0-----0--------0-------0-----
    c#|-oh2---2--------3-3-----5-----7------2---2-0h2---2---
    A|--2------2------4-------6-----7------2------2------2-
    E|-----------------------------------------------------
    B|--0-------------2-------4-----5------0------0--------
    E|-----------------------------------------------------
    Bsus4no5 C#min Eb-9min Eno5 Bsus4no5
    I'll see you soon,

    Fade:

    e|---0---------0---------------0-------0-----
    c#|-8---8-----7---7-----------2---2-0h2---2---
    A|-9---9-----7---------------2-------------2-
    E|-------------------------------------------
    B|-7---------5---------------0---------------
    E|-------------------------------------------
    Esus4no5 Eno5 Bsus4no5
    I know you lost your trust,

    e|---0---------0---------------0-------0-----
    c#|-8---8-----7---7-----------2---2-0h2---2---
    A|-9---9-----7---------------2-------------2-
    E|-------------------------------------------
    B|-7---------5---------------0---------------
    E|-------------------------------------------
    Esus4no5 Eno5 Bsus4no5
    I know you lost your trust,

    e|---0---------0--------------0-------0-----
    c#|-8---8-----7---7----------2---2-0h2---2---
    A|-9---9-----7--------------2-------------2-
    E|------------------------------------------
    B|-7---------5--------------0---------------
    E|------------------------------------------
    Esus4no5 Eno5 Bsus4no5
    Don't lose your trust,

    e|---0---------0---------------0-------0-----
    c#|-8---8-----7---7-----------2---2-0h2---2---
    A|-9---9-----7---------------2-------------2-
    E|-------------------------------------------
    B|-7---------5---------------0---------------
    E|-------------------------------------------
       

      Biographies Christina Aguilera

      Time Line - 2003 Christina Aguilera
       
      Партнеры сайта

       


    Fan Site Christina Aguilera © 2007 - 2017