.
 
Menu Site Christina Aguilerа
 
 
 
  • Написать Письмо
     
    Партнеры сайта

     

  •  

     

    Shiver
     
    Intro - No bass

    Riff #1
    |--------------------|--------------------|----------------98---|------|
    |--------------------|--------------------|-------4-6-7-6-7---6-|------|
    |-76-2--76-----------|-76-2--76-----------|-76-2----------------|------|
    |----------2-24-5-54-|----------2-24-5-54-|---------------------|-5-4-0|

    Riff #2
    |--------------------|--------------------|
    |--------------------|--------------------|
    |-2-222-222-222-22---|-2-222-222-222--2-4-|
    |-----------------0--|---------------2----|

    Riff #3
    |--------------------------------|---------------------------------|
    |--------------------------------|---------------------------------|
    |-444-444-444-44---------1-2-4-9-|-4-444-444-442-222-222-220-00000-|
    |---------------2-222-22---------|---------------------------------|

    Riff #4
    |---------------|----------------|
    |---------------|----------------|
    |---------------|----------------|
    |-4-46-67-76-64-|-46-67-79-9-434-|


    REPEAT ABOVE

    THEN play Riff #1 followed by

    |---------------|
    |---------------|
    |---------------|
    |-0-000-000-000-|


    THEN play

    Riff #5
    |---------------|---------------|-----------------|
    |---------------|---------------|-----------------|
    |-4-2-20-0------|-4-2/-6-/-0-0--|-4-2-20-0--------|
    |---------0-000-|-------------0-|---------0-00000-|

    Closing Riff
    |--------------------|--------------------|----------------------|------|
    |--------------------|--------------------|----------------------|------|
    |-76-2--76-----------|-76-2--76-----------|-76-2--76-------------|------|
    |----------2-24-5-54-|----------2-24-5-54-|----------2-24-5-5-54-|-5-4-0|
       

      Biographies Christina Aguilera

      Time Line - 2003 Christina Aguilera
       
      Партнеры сайта

       


    Fan Site Christina Aguilera © 2007 - 2017