.
 
Menu Site Christina Aguilerа
 
 
 
  • Написать Письмо
     
    Партнеры сайта

     

  •  

     

    Shiver Acoustic
     
    Acoustic rhythm

    CHORUS:

    e------0------0------0------0 ------0------0------------------|
    B------0------0------0------0 ------0------0------------------|
    G------8------X------6------1 (x3) ------6------X------------------|
    D------9------4------7------2 ------7------6------------------|
    A------9------4------7------2 ------7------6------------------|
    E------7------2------5------0 ------5------4------------------|


    VERSE:

    SO I LOOK IN YOUR DIRECTION…

    e------0------------0------|
    B------9------------0------|
    G------9------------8------|
    D------9------------9------| (x2)
    A------7------------9------|
    E------7------------7------|


    BUT ON AND ON…

    e------4------------0------------4------------0------------0------|
    B------5------------0------------5------------0------------0------|
    G------6------------3------------6------------8------------8------|
    D------6------------2------------6------------9------------7------|
    A------4------------4------------4------------9------------9------|
    E------X------------2------------X------------7------------7------|

    PRE-CHORUS:

    DID SHE WANT ME TO CHANGE…

    e------4------6------7------6------4------6------7------9------7------6
    B------4------8------7------8------4------8------7------9------7------8
    G------4------8------8------8------4------8------8------10-----8------8
    D------6------8------9------8------6------8------9------11-----9------8
    A------6------6------9------6------6------6------9------11-----9------6
    E------4------6------7------6------4------6------7------9------7------6

    ------4------|
    ------4------|
    ------4------|
    ------6------|
    ------6------|
    ------4------|


    REPEAT CHORUS, VERSE, PRE-CHORUS, CHORUS


    BRIDGE:

    AND I’LL ALWAYS BE WAITING FOR YOU…
    e------7--------------0------------0--------7------|
    B------9--------------0------------0--------9------|
    G------9--------------8------------6--------9------|
    D------9--------------9------------7--------9------|
    A------7--------------9------------7--------7------|
    E------7--------------7------------5--------7------|


    AND IT’S YOU I SEE…

    -PLAY CHORUS


    LAST CHORD:

    SO I LOOK IN YOUR DIRECTION…

    e------0------|
    B------9------|
    G------9------|
    D------9------|
    A------7------|
    E------7------|
       

      Biographies Christina Aguilera

      Time Line - 2003 Christina Aguilera
       
      Партнеры сайта

       


    Fan Site Christina Aguilera © 2007 - 2017