.
 
Menu Site Christina Aguilerа
 
 
 
  • Написать Письмо
     
    Партнеры сайта

     

  •  

     

    The Scientist5
     

    I'm pretty sure this is the correct way to do it on a guitar. I don't have chords
    like some other guys here cause i think this is the way they play it in the
    piano. I'm sure chords are used in this song, but I don't know 'em. The intro and
    the verse are the same. I'm not sure how many times each one is played in the
    chorus, but if it's not like it says there, find out yourself.

    Intro and Verse

    |----------------------------------------------------|
    |----------------------------------------------------|
    |--7-----7-----7-----7-----7-----7-----7-----7---9---|
    |--7-----7-----7-----7-----8-----8-----8-----8---10--|
    |--x--5--x--5--x--5--x--5--x--8--x--8--x--8--x---x---|
    |--5-----5-----5-----5-----6-----6-----6-----6---8---|

    |--------------------------------------------------|
    |--------------------------------------------------|
    |--7-----7-----7-----7-----5-----5-----5-----5-----|
    |--7-----7-----7-----7-----5-----5-----5-----5-----|
    |--x--5--x--5--x--5--x--5--x--3--x--3--x--3--x--3--|
    |--5-----5-----5-----5-----3-----3-----3-----3-----|

    Chorus

    |----------------------------------------------------------------------|
    |----------------------------------------------------------------------|
    |--7---7---7---7---7---7---7---7--9---7---7---7---7---5---5---5---5----|
    |--8---8---8---8---8---8---8---8--10--7---7---7---7---5---5---5---5----|
    |--x-8-x-8-x-8-x-8-x-8-x-8-x-6-x--x---x-5-x-5-x-5-x-5-x-3-x-3-x-3-x-3--|
    |--6---6---6---6---6---6---6---6--8---5---5---5---5---3---3---3---3----|

    |------------------------------------------------------|
    |------------------------------------------------------|
    |--7---7---7---7---7---7---7---7--9---7---7---7---7----|
    |--8---8---8---8---8---8---8---8--10--7---7---7---7----|
    |--x-8-x-8-x-8-x-8-x-8-x-8-x-6-x--x---x-5-x-5-x-5-x-5--|
    |--6---6---6---6---6---6---6---6--8---5---5---5---5----|

    |-----------------------------------------------------|
    |-----------------------------------------------------|
    |--5---5---5---5---5---5---5---5--7--5---5---5---5----|
    |--5---5---5---5---5---5---5---5--7--5---5---5---5----|
    |--x-3-x-3-x-3-x-3-x-3-x-3-x-3-x--x--x-3-x-3-x-3-x-3--|
    |--3---3---3---3---3---3---3---3--5--3---3---3---3----|


    That's pretty much the whole song. Just keep reapeating the verse part as many
    times necessary. Good luck! Ant suggestions, email me.
       

      Biographies Christina Aguilera

      Time Line - 2003 Christina Aguilera
       
      Партнеры сайта

       


    Fan Site Christina Aguilera © 2007 - 2017