.
 
Menu Site Christina Aguilerа
 
 
 
  • Написать Письмо
     
    Партнеры сайта

     

  •  

     

    Trouble1
     
    Standard EADG tuning

    Intro - No bass

    Riff #1
    |-----------|-----------|
    |---012-----|---012-----|
    |-------012-|-------012-|
    |-3---------|-3---------|

    THEN no bass

    THEN play Riff #1 again.

    Riff #2
    |-----------------------|
    |-----------------------|
    |-----2---0-----2---0---|
    |-3-0---1---3-0---1---3-|

    Riff #3
    |-----------|-----------|-----------|------|
    |---------2-|---------2-|---------2-|------|
    |-0-024-5---|-0-024-5---|-0-024-5---|-0-0--|
    |-----------|-----------|-----------|----0-|

    Then play
    Riff #1
    Riff #2
    Riff #3
    Riff #1 x2

    Then no bass

    Then close with Riff #1 x2.
       

      Biographies Christina Aguilera

      Time Line - 2003 Christina Aguilera
       
      Партнеры сайта

       


    Fan Site Christina Aguilera © 2007 - 2017