.
 
Menu Site Christina Aguilerа
 
 
 
  • Написать Письмо
     
    Партнеры сайта

     

  •  

     

    Trouble10
     
    coldplay , trouble.
    Tabbed by kiel , nickkiel@hotmail.com.

    pretty good song , real easy , some of the chords are a bit different so it is good to ,listen to some of the song

    INTRO : PLAT TWICE

    -2-3-2----3---2-3-2---0---2-3-2---2--
    -------3--3---------3-0---------3-3--
    ----------0-----------0-----------4--
    ----------0-----------2-----------4--
    ----------X-----------2-----------2--
    ----------3-----------0--------------

    ---5-3-2--3---2-3-2---0---2-3-2---2--
    --------3-3---------3-0---------3-3--
    ----------0-----------0-----------4--
    ----------0-----------2-----------4--
    ----------X-----------2-----------2--
    ----------3-----------0--------------

    VERSE 1

    G EM BM
    Oh no , i see
    F AM7 G
    I spun a web, its tangled up with me,
    EM BM
    And i lost my head,
    F AM7 G
    The thought was of all the supid things i said,

    G EM BM
    G EM BM ----PLAY LIKE THE INTRO

    VERSE 2

    G EM BM
    Oh no , what's this ?
    F AM7 G
    A spider web , anf i'm caught in the middle
    EM BM
    So i turned to run
    F AM7 G
    the thought of all the stupid things i've done

    chorus :

    A EM7
    And i never ment to cause you trouble ,
    A EM7
    and i never meant to do you wrong
    A EM7
    And i , well if i caused you trouble,
    A EM7
    Oh ,no i never meant to do you harm

    verse 3

    G EM BM
    Oh no , i see,
    F AM7 G
    A spider web anf it's me in the middle
    EM BM
    So i twist and turn,

    chorus :

    A EM7
    Singing , i never meant to cause you trouble
    A EM7
    i never meant to do you wrong
    A EM7
    And i, well if ever caused you trouble
    A EM7
    Although i never meant to do you harm

    G EM BM
    G EM BM
    G EM BM
    G EM BM

    OUTRO :

    EM F#M G F#M
    they spun a web for me
    EM F#M G F#M
    They spun a web for me
    EM F#M G F#M
    They spun a web for me

    G EM BM
    G EM BM
    G EM BM
    G EM BM
       

      Biographies Christina Aguilera

      Time Line - 2003 Christina Aguilera
       
      Партнеры сайта

       


    Fan Site Christina Aguilera © 2007 - 2018