.
 
Menu Site Christina Aguilerа
 
 
 
  • Написать Письмо
     
    Партнеры сайта

     

  •  

     

    Trouble9
     
    =-=-=-
    Intro:
    =-=-=-

    Piano intro arrangement for guitar. it's in 4/4.
    I think that in this octave is right don't try another one
    because they will not sound right.

    G Gmaj7 G Em G Bm Dm Gmaj7
    E|---|---3--------|-|---3--------|-|---3--------|-|-----5-3-2-------|-|
    B|---|--7--7-3-0--|-|--7--7-3-0--|-|--7--7-3-3--|-|-----------3--0--|-|
    G|-4-|---------0--|-|---------0--|-|---------4--|-|----7---------0--|-|
    D|-4-|---------0--|-|---------2--|-|---------4--|-|--------------0--|-|
    A|---|------------|-|------------|-|------------|-|-----------------|-|
    e|---|------------|-|------------|-|------------|-|-----------------|-|

    G Em G Bm
    E|---|---3--------|-|---3--------|-|
    B|---|--7--7-3-0--|-|--7--7-3-3--|-|
    G|-4-|---------0--|-|---------4--|-|
    D|-4-|---------2--|-|---------4--|-|
    A|---|------------|-|------------|-|
    e|---|------------|-|------------|-| X 2

    The guitar in the 3є part of the intro play the Bminor like this:

    E|-|--------{(7)}--|-|
    B|-|---3----{(7)}--|-|
    G|-|----4---{(7)}--|-|
    D|-|--5------------|-|
    A|-|---------------|-|
    e|-|---------------|-|

    =-=-=-
    Verse:
    =-=-=-

    G Em Bm
    Oh no I see
    F Am G
    a spider web is tangled up with me
    G Em Bm
    And I lost my head
    F Am G
    and thought of all the stupid things I'd said

    =-=-=-=-=-
    Intro X 2.
    =-=-=-=-=-

    G Em Bm
    Oh no what's this
    F Am G
    a spider web and I'm caught in the middle
    G Em Bm
    So I turned to run and
    F Am G
    thought of all the stupid things i'd done

    =-=-=-=
    Chorus:
    =-=-=-=

    Chorus Figure:
    With slide finger again.

    E|-|-------------------------|-|
    B|-|-------------------------|-|
    G|-|--(4)/(9)-------(9)/(4)--|-|
    D|-|-------------------------|-|
    A|-|-------------------------|-|
    e|-|-------------------------|-|

    A Em
    And I never meant to cause you trouble
    A Em
    Ah I never meant to do you wrong
    A Em
    Ah well if I ever caused you trouble
    A Em
    Then no I never meant to do you harm.

    =-=-=-=-=-=
    Intro
    =-=-=-=-=-=
    Verse III:
    =-=-=-=-=-=

    G Em Bm [Figure 1]
    Oh no I see
    F Am G
    a spider web and it's me in the middle
    G Em Bm [Figure 1]
    so I twist and turn
    F Am G
    but here am I in my little bubble

    =-=-=-=
    Chorus:
    =-=-=-=

    A Em
    Singing out ah I never meant to cause you trouble
    A Em
    Ah I never meant to do you wrong
    A Em
    And ah well if I ever caused you trouble
    A Em
    Then oh no I never meant to do you harm.

    =-=-=-
    Break:
    =-=-=-

    [Like Ending)
    Em
    E|-|--------|-|
    B|-|--------|-|
    G|-|--------|-|
    D|-|--2-2---|-|
    A|-|--------|-|
    e|-|--------|-|

    G Em Bm G Em Bm G Em Bm G Em Bm
    E|-|--3--0--2------|-|--3--0--2------|-|--3--0--2------|-|--3--0--(2)-------|-|
    B|-|--0--0--3--2-5-|-|--0--0--3--2-5-|-|--0--0--3--2-5-|-|--0--0--(3)-------|-|
    G|-|--0--0--4------|-|--0--0--4------|-|--0--0--4------|-|--0--0--(4)-------|-|
    D|-|--0--2--4------|-|--0--2--4------|-|--0--2--4------|-|--0--2--(4)-------|-|
    A|-|--2--2--2------|-|--2--2--2------|-|--2--2--2------|-|--2--2--(2)-------|-|
    e|-|--3--0--X------|-|--3--0--X------|-|--3--0--X------|-|--3--0--(X)-------|-|

    =-=-
    End:
    =-=-

    Em F#m G F#m Em
    And they spun a web for me
    Em F#m G F#m Em
    They spun a web for me
    Em F#m G F#m Em
    And they spun a web for me.

    =-=-=-=-=-
    Piano End:
    =-=-=-=-=-

    Em
    E|-|-----------|-|
    B|-|-----------|-|
    G|-|-----------|-|
    D|-|--2-2-2-2--|-|
    A|-|-----------|-|
    e|-|-----------|-|

    G Em Bm G Em Bm G Em Bm G Em Bm
    E|-|--3--0--2------|-|--3--0--2------|-|--3--0--2------|-|--3--0--(2)-------|-|
    B|-|--0--0--3--2-5-|-|--0--0--3--2-5-|-|--0--0--3--2-5-|-|--0--0--(3)-------|-|
    G|-|--0--0--4------|-|--0--0--4------|-|--0--0--4------|-|--0--0--(4)-------|-|
    D|-|--0--2--4------|-|--0--2--4------|-|--0--2--4------|-|--0--2--(4)-------|-|
    A|-|--2--2--2------|-|--2--2--2------|-|--2--2--2------|-|--2--2--(2)-------|-|
    e|-|--3--0--X------|-|--3--0--X------|-|--3--0--X------|-|--3--0--(X)-------|-|

    =-=-=-=-=-=-=-=
    End For Guitar:
    =-=-=-=-=-=-=-=

    G D G D G D G D
    E|-|-------|-|-------|-|-------|-|----{(10)}------|-|
    B|-|-------|-|-------|-|-------|-|----{(10)}------|-|
    G|-|-------|-|-------|-|-------|-|----{(12)}------|-|
    D|-|----0-----0----|-|----0-----0----|-|----0-----0----|-|----0-----0---------|-|
    A|-|---------------|-|---------------|-|---------------|-|--------------------|-|
    e|-|---------------|-|---------------|-|---------------|-|--------------------|-|

    [Figure 1]:

    With a slide finger. Of glass or metal.
    For this you got to let ring the notes that are between the parenthesis(), before
    you slide them, listen how Jonny do it.

    E|-|----------------------|-|
    B|-|----------------------|-|
    G|-|--(11)--/9-(9)/7-(7)--|-|
    D|-|----------------------|-|
    A|-|----------------------|-|
    e|-|----------------------|-|

    : Let ring
    {}: With bending and lever
    / : Slide
    {()}: Let ring with some bending and lever

    Chords:
    G Bm Gmaj7 Em A Am F
    E|-|--3--|--2--|--X--|--0--|--0--|--0--|--1--|-|
    B|-|--3--|--3--|--0--|--0--|--2--|--1--|--1--|-|
    G|-|--4--|--4--|--0--|--0--|--2--|--2--|--2--|-|
    D|-|--5--|--4--|--0--|--2--|--2--|--2--|--3--|-|
    A|-|--5--|--2--|--X--|--2--|--0--|--0--|--3--|-|
    e|-|--3--|--X--|--X--|--0--|--X--|--X--|--1--|-|
       

      Biographies Christina Aguilera

      Time Line - 2003 Christina Aguilera
       
      Партнеры сайта

       


    Fan Site Christina Aguilera © 2007 - 2017